999
dxflib 3.12.2.0
  0
SECTION
  2
HEADER
  9
$ACADVER
  1
AC1015
  9
$HANDSEED
  5
FFFF
  9
$DIMADEC
 70
0
  9
$DIMASZ
 40
2.5
  9
$DIMAUNIT
 70
0
  9
$DIMAZIN
 70
2
  9
$DIMDEC
 70
4
  9
$DIMEXE
 40
1.25
  9
$DIMEXO
 40
0.625
  9
$DIMGAP
 40
0.625
  9
$DIMLUNIT
 70
2
  9
$DIMSCALE
 40
1.0
  9
$DIMTSZ
 40
0.0
  9
$DIMTXT
 40
2.5
  9
$DIMZIN
 70
8
  9
$DWGCODEPAGE
  3
ANSI_1252
  9
$INSUNITS
 70
4
  9
$LTSCALE
 40
1.0
  9
$MEASUREMENT
 70
1
  9
$PDMODE
 70
0
  9
$PDSIZE
 40
0
  0
ENDSEC
  0
SECTION
  2
TABLES
  0
TABLE
  2
VPORT
  5
8
100
AcDbSymbolTable
 70
1
  0
VPORT
  5
30
100
AcDbSymbolTableRecord
100
AcDbViewportTableRecord
  2
*Active
 70
0
 10
0.0
 20
0.0
 11
1.0
 21
1.0
 12
286.30555555555549
 22
148.5
 13
0.0
 23
0.0
 14
10.0
 24
10.0
 15
10.0
 25
10.0
 16
0.0
 26
0.0
 36
1.0
 17
0.0
 27
0.0
 37
0.0
 40
297.0
 41
1.92798353909465
 42
50.0
 43
0.0
 44
0.0
 50
0.0
 51
0.0
 71
0
 72
100
 73
1
 74
3
 75
1
 76
1
 77
0
 78
0
281
0
 65
1
110
0.0
120
0.0
130
0.0
111
1.0
121
0.0
131
0.0
112
0.0
122
1.0
132
0.0
 79
0
146
0.0
  0
ENDTAB
  0
TABLE
  2
LTYPE
  5
5
100
AcDbSymbolTable
 70
50
  0
LTYPE
  5
16
100
AcDbSymbolTableRecord
100
AcDbLinetypeTableRecord
  2
Continuous
 70
0
  3
Solid line
 72
65
 73
0
 40
0.0
  0
LTYPE
  5
31
100
AcDbSymbolTableRecord
100
AcDbLinetypeTableRecord
  2
ACAD_ISO15W100
 70
0
  3
ISO double-dash triple-dot __ __ . . . __ __ . .
 72
65
 73
10
 40
39.0
 49
12.0
 74
0
 49
-3.0
 74
0
 49
12.0
 74
0
 49
-3.0
 74
0
 49
0.0
 74
0
 49
-3.0
 74
0
 49
0.0
 74
0
 49
-3.0
 74
0
 49
0.0
 74
0
 49
-3.0
 74
0
  0
LTYPE
  5
32
100
AcDbSymbolTableRecord
100
AcDbLinetypeTableRecord
  2
HOT_WATER_SUPPLY
 70
0
  3
Hot water supply ---- HW ---- HW ---- HW ----
 72
65
 73
3
 40
22.859999999999999
 49
12.699999999999999
 74
0
 49
-5.0800000000000001
 74
0
 49
-5.0800000000000001
 74
0
  0
LTYPE
  5
33
100
AcDbSymbolTableRecord
100
AcDbLinetypeTableRecord
  2
DIVIDE
 70
0
  3
Divide ____ . . ____ . . ____ . . ____ . . ____
 72
65
 73
6
 40
31.75
 49
12.699999999999999
 74
0
 49
-6.3499999999999996
 74
0
 49
0.0
 74
0
 49
-6.3499999999999996
 74
0
 49
0.0
 74
0
 49
-6.3499999999999996
 74
0
  0
LTYPE
  5
34
100
AcDbSymbolTableRecord
100
AcDbLinetypeTableRecord
  2
ACAD_ISO10W100
 70
0
  3
ISO dash dot __ . __ . __ . __ . __ . __ . __ . 
 72
65
 73
4
 40
18.0
 49
12.0
 74
0
 49
-3.0
 74
0
 49
0.0
 74
0
 49
-3.0
 74
0
  0
LTYPE
  5
35
100
AcDbSymbolTableRecord
100
AcDbLinetypeTableRecord
  2
GAS_LINE
 70
0
  3
Gas line ----GAS----GAS----GAS----GAS----GAS----GAS--
 72
65
 73
3
 40
24.130000000000003
 49
12.699999999999999
 74
0
 49
-5.0800000000000001
 74
0
 49
-6.3499999999999996
 74
0
  0
LTYPE
  5
36
100
AcDbSymbolTableRecord
100
AcDbLinetypeTableRecord
  2
ACAD_ISO04W100
 70
0
  3
ISO long-dash dot ____ . ____ . ____ . ____ . _
 72
65
 73
4
 40
30.0
 49
24.0
 74
0
 49
-3.0
 74
0
 49
0.0
 74
0
 49
-3.0
 74
0
  0
LTYPE
  5
37
100
AcDbSymbolTableRecord
100
AcDbLinetypeTableRecord
  2
CENTER2
 70
0
  3
Center (.5x) ___ _ ___ _ ___ _ ___ _ ___ _ ___
 72
65
 73
4
 40
28.575000000000003
 49
19.050000000000001
 74
0
 49
-3.1749999999999998
 74
0
 49
3.1749999999999998
 74
0
 49
-3.1749999999999998
 74
0
  0
LTYPE
  5
38
100
AcDbSymbolTableRecord
100
AcDbLinetypeTableRecord
  2
ACAD_ISO11W100
 70
0
  3
ISO double-dash dot __ __ . __ __ . __ __ . __ _
 72
65
 73
6
 40
33.0
 49
12.0
 74
0
 49
-3.0
 74
0
 49
12.0
 74
0
 49
-3.0
 74
0
 49
0.0
 74
0
 49
-3.0
 74
0
  0
LTYPE
  5
39
100
AcDbSymbolTableRecord
100
AcDbLinetypeTableRecord
  2
HIDDEN2
 70
0
  3
Hidden (.5x) _ _ _ _ _ _ _ _ _ _ _ _ _ _ _ _ _ 
 72
65
 73
2
 40
4.7624999999999993
 49
3.1749999999999998
 74
0
 49
-1.5874999999999999
 74
0
  0
LTYPE
  5
3A
100
AcDbSymbolTableRecord
100
AcDbLinetypeTableRecord
  2
BORDERX2
 70
0
  3
Border (2x) ____  ____  .  ____  ____  .  ___
 72
65
 73
6
 40
88.899999999999991
 49
25.399999999999999
 74
0
 49
-12.699999999999999
 74
0
 49
25.399999999999999
 74
0
 49
-12.699999999999999
 74
0
 49
0.0
 74
0
 49
-12.699999999999999
 74
0
  0
LTYPE
  5
3B
100
AcDbSymbolTableRecord
100
AcDbLinetypeTableRecord
  2
ACAD_ISO05W100
 70
0
  3
ISO long-dash double-dot ____ .. ____ .. ____ . 
 72
65
 73
6
 40
33.0
 49
24.0
 74
0
 49
-3.0
 74
0
 49
0.0
 74
0
 49
-3.0
 74
0
 49
0.0
 74
0
 49
-3.0
 74
0
  0
LTYPE
  5
3C
100
AcDbSymbolTableRecord
100
AcDbLinetypeTableRecord
  2
DASHDOTX2
 70
0
  3
Dash dot (2x) ____  .  ____  .  ____  .  ___
 72
65
 73
4
 40
50.799999999999997
 49
25.399999999999999
 74
0
 49
-12.699999999999999
 74
0
 49
0.0
 74
0
 49
-12.699999999999999
 74
0
  0
LTYPE
  5
3D
100
AcDbSymbolTableRecord
100
AcDbLinetypeTableRecord
  2
HIDDENX2
 70
0
  3
Hidden (2x) ____ ____ ____ ____ ____ ____ ____ 
 72
65
 73
2
 40
19.049999999999997
 49
12.699999999999999
 74
0
 49
-6.3499999999999996
 74
0
  0
LTYPE
  5
3E
100
AcDbSymbolTableRecord
100
AcDbLinetypeTableRecord
  2
CENTERX2
 70
0
  3
Center (2x) ________  __  ________  __  _____
 72
65
 73
4
 40
101.60000000000001
 49
63.5
 74
0
 49
-12.699999999999999
 74
0
 49
12.699999999999999
 74
0
 49
-12.699999999999999
 74
0
  0
LTYPE
  5
3F
100
AcDbSymbolTableRecord
100
AcDbLinetypeTableRecord
  2
BORDER2
 70
0
  3
Border (.5x) __.__.__.__.__.__.__.__.__.__.__.
 72
65
 73
6
 40
22.224999999999998
 49
6.3499999999999996
 74
0
 49
-3.1749999999999998
 74
0
 49
6.3499999999999996
 74
0
 49
-3.1749999999999998
 74
0
 49
0.0
 74
0
 49
-3.1749999999999998
 74
0
  0
LTYPE
  5
40
100
AcDbSymbolTableRecord
100
AcDbLinetypeTableRecord
  2
DASHDOT2
 70
0
  3
Dash dot (.5x) _._._._._._._._._._._._._._._.
 72
65
 73
4
 40
12.699999999999999
 49
6.3499999999999996
 74
0
 49
-3.1749999999999998
 74
0
 49
0.0
 74
0
 49
-3.1749999999999998
 74
0
  0
LTYPE
  5
41
100
AcDbSymbolTableRecord
100
AcDbLinetypeTableRecord
  2
ACAD_ISO12W100
 70
0
  3
ISO dash double-dot __ . . __ . . __ . . __ . . 
 72
65
 73
6
 40
21.0
 49
12.0
 74
0
 49
-3.0
 74
0
 49
0.0
 74
0
 49
-3.0
 74
0
 49
0.0
 74
0
 49
-3.0
 74
0
  0
LTYPE
  5
42
100
AcDbSymbolTableRecord
100
AcDbLinetypeTableRecord
  2
ACAD_ISO07W100
 70
0
  3
ISO dot . . . . . . . . . . . . . . . . . . . . 
 72
65
 73
2
 40
3.0
 49
0.0
 74
0
 49
-3.0
 74
0
  0
LTYPE
  5
43
100
AcDbSymbolTableRecord
100
AcDbLinetypeTableRecord
  2
ACAD_ISO06W100
 70
0
  3
ISO long-dash triple-dot ____ ... ____ ... ____
 72
65
 73
8
 40
36.0
 49
24.0
 74
0
 49
-3.0
 74
0
 49
0.0
 74
0
 49
-3.0
 74
0
 49
0.0
 74
0
 49
-3.0
 74
0
 49
0.0
 74
0
 49
-3.0
 74
0
  0
LTYPE
  5
44
100
AcDbSymbolTableRecord
100
AcDbLinetypeTableRecord
  2
CENTER
 70
0
  3
Center ____ _ ____ _ ____ _ ____ _ ____ _ ____
 72
65
 73
4
 40
50.800000000000004
 49
31.75
 74
0
 49
-6.3499999999999996
 74
0
 49
6.3499999999999996
 74
0
 49
-6.3499999999999996
 74
0
  0
LTYPE
  5
45
100
AcDbSymbolTableRecord
100
AcDbLinetypeTableRecord
  2
HIDDEN
 70
0
  3
Hidden __ __ __ __ __ __ __ __ __ __ __ __ __ __
 72
65
 73
2
 40
9.5249999999999986
 49
6.3499999999999996
 74
0
 49
-3.1749999999999998
 74
0
  0
LTYPE
  5
46
100
AcDbSymbolTableRecord
100
AcDbLinetypeTableRecord
  2
DOTX2
 70
0
  3
Dot (2x) .  .  .  .  .  .  .  .  .  .  .  .  .  .
 72
65
 73
2
 40
12.699999999999999
 49
0.0
 74
0
 49
-12.699999999999999
 74
0
  0
LTYPE
  5
47
100
AcDbSymbolTableRecord
100
AcDbLinetypeTableRecord
  2
PHANTOM
 70
0
  3
Phantom ______  __  __  ______  __  __  ______ 
 72
65
 73
6
 40
63.500000000000007
 49
31.75
 74
0
 49
-6.3499999999999996
 74
0
 49
6.3499999999999996
 74
0
 49
-6.3499999999999996
 74
0
 49
6.3499999999999996
 74
0
 49
-6.3499999999999996
 74
0
  0
LTYPE
  5
48
100
AcDbSymbolTableRecord
100
AcDbLinetypeTableRecord
  2
ACAD_ISO08W100
 70
0
  3
ISO long-dash short-dash ____ __ ____ __ ____ _
 72
65
 73
4
 40
36.0
 49
24.0
 74
0
 49
-3.0
 74
0
 49
6.0
 74
0
 49
-3.0
 74
0
  0
LTYPE
  5
49
100
AcDbSymbolTableRecord
100
AcDbLinetypeTableRecord
  2
DASHEDX2
 70
0
  3
Dashed (2x) ____  ____  ____  ____  ____  ___
 72
65
 73
2
 40
38.099999999999994
 49
25.399999999999999
 74
0
 49
-12.699999999999999
 74
0
  0
LTYPE
  5
4A
100
AcDbSymbolTableRecord
100
AcDbLinetypeTableRecord
  2
DRAINAGE
 70
0
  3
Drainage ---->---->---->----
 72
65
 73
2
 40
10.16
 49
5.0800000000000001
 74
0
 49
5.0800000000000001
 74
0
  0
LTYPE
  5
4B
100
AcDbSymbolTableRecord
100
AcDbLinetypeTableRecord
  2
ACAD_ISO02W100
 70
0
  3
ISO dash __ __ __ __ __ __ __ __ __ __ __ __ __
 72
65
 73
2
 40
15.0
 49
12.0
 74
0
 49
-3.0
 74
0
  0
LTYPE
  5
4C
100
AcDbSymbolTableRecord
100
AcDbLinetypeTableRecord
  2
PHANTOM2
 70
0
  3
Phantom (.5x) ___ _ _ ___ _ _ ___ _ _ ___ _ _
 72
65
 73
6
 40
31.750000000000004
 49
15.875
 74
0
 49
-3.1749999999999998
 74
0
 49
3.1749999999999998
 74
0
 49
-3.1749999999999998
 74
0
 49
3.1749999999999998
 74
0
 49
-3.1749999999999998
 74
0
  0
LTYPE
  5
4D
100
AcDbSymbolTableRecord
100
AcDbLinetypeTableRecord
  2
DASHED2
 70
0
  3
Dashed (.5x) _ _ _ _ _ _ _ _ _ _ _ _ _ _ _ _ _ 
 72
65
 73
2
 40
9.5249999999999986
 49
6.3499999999999996
 74
0
 49
-3.1749999999999998
 74
0
  0
LTYPE
  5
4E
100
AcDbSymbolTableRecord
100
AcDbLinetypeTableRecord
  2
ACAD_ISO09W100
 70
0
  3
ISO long-dash double-short-dash ____ __ __ ____
 72
65
 73
6
 40
45.0
 49
24.0
 74
0
 49
-3.0
 74
0
 49
6.0
 74
0
 49
-3.0
 74
0
 49
6.0
 74
0
 49
-3.0
 74
0
  0
LTYPE
  5
4F
100
AcDbSymbolTableRecord
100
AcDbLinetypeTableRecord
  2
ACAD_ISO13W100
 70
0
  3
ISO double-dash double-dot __ __ . . __ __ . . _
 72
65
 73
8
 40
36.0
 49
12.0
 74
0
 49
-3.0
 74
0
 49
12.0
 74
0
 49
-3.0
 74
0
 49
0.0
 74
0
 49
-3.0
 74
0
 49
0.0
 74
0
 49
-3.0
 74
0
  0
LTYPE
  5
50
100
AcDbSymbolTableRecord
100
AcDbLinetypeTableRecord
  2
TRACKS
 70
0
  3
Tracks -|-|-|-|-|-|-|-|-|-|-|-|-|-|-|-|-|-|-|-|-|-|-|-|-
 72
65
 73
2
 40
7.6200000000000001
 49
3.8100000000000001
 74
0
 49
3.8100000000000001
 74
0
  0
LTYPE
  5
51
100
AcDbSymbolTableRecord
100
AcDbLinetypeTableRecord
  2
DRAINAGE2
 70
0
  3
Drainage reversed----<----<----<----
 72
65
 73
2
 40
10.16
 49
5.0800000000000001
 74
0
 49
5.0800000000000001
 74
0
  0
LTYPE
  5
52
100
AcDbSymbolTableRecord
100
AcDbLinetypeTableRecord
  2
DOT2
 70
0
  3
Dot (.5x) ........................................
 72
65
 73
2
 40
3.1749999999999998
 49
0.0
 74
0
 49
-3.1749999999999998
 74
0
  0
LTYPE
  5
53
100
AcDbSymbolTableRecord
100
AcDbLinetypeTableRecord
  2
ZIGZAG
 70
0
  3
Zig zag /\/\/\/\/\/\/\/\/\/\/\/\/\/\/\/\/\/\/\/\/\/\/\/
 72
65
 73
4
 40
20.32254
 49
0.00254
 74
0
 49
-5.0800000000000001
 74
0
 49
-10.16
 74
0
 49
-5.0800000000000001
 74
0
  0
LTYPE
  5
54
100
AcDbSymbolTableRecord
100
AcDbLinetypeTableRecord
  2
DASHED
 70
0
  3
Dashed __ __ __ __ __ __ __ __ __ __ __ __ __ _
 72
65
 73
2
 40
19.049999999999997
 49
12.699999999999999
 74
0
 49
-6.3499999999999996
 74
0
  0
LTYPE
  5
55
100
AcDbSymbolTableRecord
100
AcDbLinetypeTableRecord
  2
ACAD_ISO14W100
 70
0
  3
ISO dash triple-dot __ . . . __ . . . __ . . . _
 72
65
 73
8
 40
24.0
 49
12.0
 74
0
 49
-3.0
 74
0
 49
0.0
 74
0
 49
-3.0
 74
0
 49
0.0
 74
0
 49
-3.0
 74
0
 49
0.0
 74
0
 49
-3.0
 74
0
  0
LTYPE
  5
15
100
AcDbSymbolTableRecord
100
AcDbLinetypeTableRecord
  2
BYLAYER
 70
0
  3

 72
65
 73
0
 40
0.0
  0
LTYPE
  5
56
100
AcDbSymbolTableRecord
100
AcDbLinetypeTableRecord
  2
PHANTOMX2
 70
0
  3
Phantom (2x) ____________    ____    ____   _
 72
65
 73
6
 40
127.00000000000001
 49
63.5
 74
0
 49
-12.699999999999999
 74
0
 49
12.699999999999999
 74
0
 49
-12.699999999999999
 74
0
 49
12.699999999999999
 74
0
 49
-12.699999999999999
 74
0
  0
LTYPE
  5
14
100
AcDbSymbolTableRecord
100
AcDbLinetypeTableRecord
  2
BYBLOCK
 70
0
  3

 72
65
 73
0
 40
0.0
  0
LTYPE
  5
57
100
AcDbSymbolTableRecord
100
AcDbLinetypeTableRecord
  2
DIVIDEX2
 70
0
  3
Divide (2x) ________  .  .  ________  .  .  _
 72
65
 73
6
 40
63.5
 49
25.399999999999999
 74
0
 49
-12.699999999999999
 74
0
 49
0.0
 74
0
 49
-12.699999999999999
 74
0
 49
0.0
 74
0
 49
-12.699999999999999
 74
0
  0
LTYPE
  5
58
100
AcDbSymbolTableRecord
100
AcDbLinetypeTableRecord
  2
BORDER
 70
0
  3
Border __ __ . __ __ . __ __ . __ __ . __ __ .
 72
65
 73
6
 40
44.449999999999996
 49
12.699999999999999
 74
0
 49
-6.3499999999999996
 74
0
 49
12.699999999999999
 74
0
 49
-6.3499999999999996
 74
0
 49
0.0
 74
0
 49
-6.3499999999999996
 74
0
  0
LTYPE
  5
59
100
AcDbSymbolTableRecord
100
AcDbLinetypeTableRecord
  2
DIVIDE2
 70
0
  3
Divide (.5x) __..__..__..__..__..__..__..__.._
 72
65
 73
6
 40
15.875
 49
6.3499999999999996
 74
0
 49
-3.1749999999999998
 74
0
 49
0.0
 74
0
 49
-3.1749999999999998
 74
0
 49
0.0
 74
0
 49
-3.1749999999999998
 74
0
  0
LTYPE
  5
5A
100
AcDbSymbolTableRecord
100
AcDbLinetypeTableRecord
  2
DOT
 70
0
  3
Dot . . . . . . . . . . . . . . . . . . . . . . . .
 72
65
 73
2
 40
6.3499999999999996
 49
0.0
 74
0
 49
-6.3499999999999996
 74
0
  0
LTYPE
  5
5B
100
AcDbSymbolTableRecord
100
AcDbLinetypeTableRecord
  2
DASHDOT
 70
0
  3
Dash dot __ . __ . __ . __ . __ . __ . __ . __
 72
65
 73
4
 40
25.399999999999999
 49
12.699999999999999
 74
0
 49
-6.3499999999999996
 74
0
 49
0.0
 74
0
 49
-6.3499999999999996
 74
0
  0
LTYPE
  5
5C
100
AcDbSymbolTableRecord
100
AcDbLinetypeTableRecord
  2
FENCELINE1
 70
0
  3
Fenceline circle ----0-----0----0-----0----0-----0--
 72
65
 73
4
 40
36.829999999999998
 49
6.3499999999999996
 74
0
 49
-2.54
 74
0
 49
-2.54
 74
0
 49
25.399999999999999
 74
0
  0
LTYPE
  5
5D
100
AcDbSymbolTableRecord
100
AcDbLinetypeTableRecord
  2
BATTING
 70
0
  3
Batting SSSSSSSSSSSSSSSSSSSSSSSSSSSSSSSSSSSSSSSSSSSSSSS
 72
65
 73
4
 40
10.16254
 49
0.00254
 74
0
 49
-2.54
 74
0
 49
-5.0800000000000001
 74
0
 49
-2.54
 74
0
  0
LTYPE
  5
5E
100
AcDbSymbolTableRecord
100
AcDbLinetypeTableRecord
  2
ACAD_ISO03W100
 70
0
  3
ISO dash space __    __    __    __    __    __
 72
65
 73
2
 40
30.0
 49
12.0
 74
0
 49
-18.0
 74
0
  0
LTYPE
  5
5F
100
AcDbSymbolTableRecord
100
AcDbLinetypeTableRecord
  2
FENCELINE2
 70
0
  3
Fenceline square ----[]-----[]----[]-----[]----[]---
 72
65
 73
4
 40
36.829999999999998
 49
6.3499999999999996
 74
0
 49
-2.54
 74
0
 49
-2.54
 74
0
 49
25.399999999999999
 74
0
  0
ENDTAB
  0
TABLE
  2
LAYER
  5
2
100
AcDbSymbolTable
 70
3
  0
LAYER
  5
60
100
AcDbSymbolTableRecord
100
AcDbLayerTableRecord
  2
Grabado Superficie
 70
0
 62
30
420
16744192
  6
Continuous
370
25
390
F
  0
LAYER
  5
61
100
AcDbSymbolTableRecord
100
AcDbLayerTableRecord
  2
Corte exterior
 70
0
 62
1
420
16711680
  6
Continuous
370
-3
390
F
  0
LAYER
  5
10
100
AcDbSymbolTableRecord
100
AcDbLayerTableRecord
  2
0
 70
0
 62
7
420
16777215
  6
Continuous
370
25
390
F
  0
ENDTAB
  0
TABLE
  2
STYLE
  5
3
100
AcDbSymbolTable
 70
1
  0
STYLE
  5
62
100
AcDbSymbolTableRecord
100
AcDbTextStyleTableRecord
  2
Standard
 70
0
 40
0.0
 41
1.0
 50
0.0
 71
0
 42
2.5
  3

  4

1001
ACAD
1000
txt
1071
0
  0
ENDTAB
  0
TABLE
  2
VIEW
  5
6
100
AcDbSymbolTable
 70
0
  0
ENDTAB
  0
TABLE
  2
UCS
  5
7
100
AcDbSymbolTable
 70
0
  0
ENDTAB
  0
TABLE
  2
APPID
  5
9
100
AcDbSymbolTable
 70
1
  0
APPID
  5
12
100
AcDbSymbolTableRecord
100
AcDbRegAppTableRecord
  2
ACAD
 70
0
  0
APPID
  5
63
100
AcDbSymbolTableRecord
100
AcDbRegAppTableRecord
  2
QCAD
 70
0
  0
ENDTAB
  0
TABLE
  2
DIMSTYLE
  5
A
100
AcDbSymbolTable
 70
1
100
AcDbDimStyleTable
 71
0
  0
DIMSTYLE
105
27
100
AcDbSymbolTableRecord
100
AcDbDimStyleTableRecord
  2
Standard
 41
2.5
 42
0.625
 43
3.75
 44
1.25
 70
0
 73
0
 74
0
 77
1
 78
8
140
2.5
141
2.5
143
0.03937007874016
147
0.625
171
3
172
1
271
2
272
2
274
3
278
44
283
0
284
8
340
62
  0
ENDTAB
  0
TABLE
  2
BLOCK_RECORD
  5
1
100
AcDbSymbolTable
 70
1
  0
BLOCK_RECORD
  5
1F
100
AcDbSymbolTableRecord
100
AcDbBlockTableRecord
  2
*Model_Space
340
22
  0
BLOCK_RECORD
  5
1B
100
AcDbSymbolTableRecord
100
AcDbBlockTableRecord
  2
*Paper_Space
340
1E
  0
BLOCK_RECORD
  5
23
100
AcDbSymbolTableRecord
100
AcDbBlockTableRecord
  2
*Paper_Space0
340
26
  0
ENDTAB
  0
ENDSEC
  0
SECTION
  2
BLOCKS
  0
BLOCK
  5
20
100
AcDbEntity
  8
0
100
AcDbBlockBegin
  2
*Model_Space
 70
0
 10
0.0
 20
0.0
 30
0.0
  3
*Model_Space
  1

  0
ENDBLK
  5
21
100
AcDbEntity
  8
0
100
AcDbBlockEnd
  0
BLOCK
  5
1C
100
AcDbEntity
 67
1
  8
0
100
AcDbBlockBegin
  2
*Paper_Space
 70
0
 10
0.0
 20
0.0
 30
0.0
  3
*Paper_Space
  1

  0
ENDBLK
  5
1D
100
AcDbEntity
 67
1
  8
0
100
AcDbBlockEnd
  0
BLOCK
  5
24
100
AcDbEntity
  8
0
100
AcDbBlockBegin
  2
*Paper_Space0
 70
0
 10
0.0
 20
0.0
 30
0.0
  3
*Paper_Space0
  1

  0
ENDBLK
  5
25
100
AcDbEntity
  8
0
100
AcDbBlockEnd
  0
ENDSEC
  0
SECTION
  2
ENTITIES
  0
ELLIPSE
  5
64
100
AcDbEntity
100
AcDbEllipse
  8
Corte exterior
 62
256
370
-1
 48
1.0
  6
BYLAYER
 10
95.659735736319973
 20
65.51565115391999
 30
0.0
 11
-2.5834239999999791
 21
-5.2354841600000119
 31
0.0
 40
0.8458115499888329
 41
0.0
 42
6.2831853071795862
  0
CIRCLE
  5
65
100
AcDbEntity
100
AcDbCircle
  8
Corte exterior
 62
256
370
-1
 48
1.0
  6
BYLAYER
 10
74.0
 20
8.0
 30
0.0
 40
4.5
  0
LWPOLYLINE
  5
66
  8
Corte exterior
 62
256
370
-1
 48
1.0
  6
BYLAYER
100
AcDbEntity
100
AcDbPolyline
 90
8
 70
1
 10
182.08354298757109
 20
27.199769942016022
 30
0.0
 10
182.08354298757109
 20
17.899769942016022
 30
0.0
 10
187.08354298757109
 20
17.899769942016022
 30
0.0
 10
187.08354298757109
 20
20.899769942016022
 30
0.0
 10
192.08354298757109
 20
20.899769942016022
 30
0.0
 10
192.08354298757109
 20
17.899769942016022
 30
0.0
 10
197.08354298757109
 20
17.899769942016022
 30
0.0
 10
197.08354298757109
 20
27.199769942016022
 30
0.0
 42
0.9999999999999998
  0
LWPOLYLINE
  5
67
  8
Corte exterior
 62
256
370
-1
 48
1.0
  6
BYLAYER
100
AcDbEntity
100
AcDbPolyline
 90
13
 70
0
 10
162.49839271280632
 20
3.2911595274240284
 30
0.0
 10
167.49839271280632
 20
3.2911595274240284
 30
0.0
 10
167.49839271280632
 20
0.2911595274240284
 30
0.0
 10
172.49839271280632
 20
0.2911595274240284
 30
0.0
 10
172.49839271280632
 20
3.2911595274240284
 30
0.0
 10
177.49839271280632
 20
3.2911595274240284
 30
0.0
 10
177.49839271280632
 20
36.291159527424028
 30
0.0
 10
172.49839271280632
 20
36.291159527424028
 30
0.0
 10
172.49839271280632
 20
39.291159527424028
 30
0.0
 10
167.49839271280632
 20
39.291159527424028
 30
0.0
 10
167.49839271280632
 20
36.291159527424028
 30
0.0
 10
162.49839271280632
 20
36.291159527424028
 30
0.0
 10
162.49839271280632
 20
3.2911595274240284
 30
0.0
  0
LWPOLYLINE
  5
68
  8
Corte exterior
 62
256
370
-1
 48
1.0
  6
BYLAYER
100
AcDbEntity
100
AcDbPolyline
 90
10
 70
1
 10
182.70753242480635
 20
69.429365735424
 30
0.0
 10
182.70753242480635
 20
42.429365735424
 30
0.0
 10
187.70753242480635
 20
42.429365735424
 30
0.0
 10
187.70753242480635
 20
45.429365735424
 30
0.0
 10
192.70753242480635
 20
45.429365735424
 30
0.0
 10
192.70753242480635
 20
42.429365735424
 30
0.0
 10
197.70753242480635
 20
42.429365735424
 30
0.0
 10
197.70753242480635
 20
69.429365735424
 30
0.0
 10
194.93981118868032
 20
77.543533539893957
 30
0.0
 42
0.7154760664940828
 10
185.47525366093237
 20
77.543533539893957
 30
0.0
  0
LWPOLYLINE
  5
69
  8
Corte exterior
 62
256
370
-1
 48
1.0
  6
BYLAYER
100
AcDbEntity
100
AcDbPolyline
 90
10
 70
1
 10
162.25416310947827
 20
68.686357364735997
 30
0.0
 10
162.25416310947827
 20
41.686357364735997
 30
0.0
 10
167.25416310947827
 20
41.686357364735997
 30
0.0
 10
167.25416310947827
 20
44.686357364735997
 30
0.0
 10
172.25416310947827
 20
44.686357364735997
 30
0.0
 10
172.25416310947827
 20
41.686357364735997
 30
0.0
 10
177.25416310947827
 20
41.686357364735997
 30
0.0
 10
177.25416310947827
 20
68.686357364735997
 30
0.0
 10
174.48644187335225
 20
76.800525169205955
 30
0.0
 42
0.7154760664940828
 10
165.02188434560429
 20
76.800525169205955
 30
0.0
  0
LWPOLYLINE
  5
6A
  8
Corte exterior
 62
256
370
-1
 48
1.0
  6
BYLAYER
100
AcDbEntity
100
AcDbPolyline
 90
8
 70
1
 10
182.22308638064629
 20
114.34215368908795
 30
0.0
 10
182.22308638064629
 20
105.04215368908795
 30
0.0
 10
187.22308638064629
 20
105.04215368908795
 30
0.0
 10
187.22308638064629
 20
108.04215368908795
 30
0.0
 10
192.22308638064629
 20
108.04215368908795
 30
0.0
 10
192.22308638064629
 20
105.04215368908795
 30
0.0
 10
197.22308638064629
 20
105.04215368908795
 30
0.0
 10
197.22308638064629
 20
114.34215368908795
 30
0.0
 42
0.9999999999999998
  0
LWPOLYLINE
  5
6B
  8
Corte exterior
 62
256
370
-1
 48
1.0
  6
BYLAYER
100
AcDbEntity
100
AcDbPolyline
 90
13
 70
0
 10
162.15727390064629
 20
88.334659289087966
 30
0.0
 10
167.15727390064629
 20
88.334659289087966
 30
0.0
 10
167.15727390064629
 20
85.334659289087966
 30
0.0
 10
172.15727390064629
 20
85.334659289087966
 30
0.0
 10
172.15727390064629
 20
88.334659289087966
 30
0.0
 10
177.15727390064629
 20
88.334659289087966
 30
0.0
 10
177.15727390064629
 20
121.33465928908797
 30
0.0
 10
172.15727390064629
 20
121.33465928908797
 30
0.0
 10
172.15727390064629
 20
124.33465928908797
 30
0.0
 10
167.15727390064629
 20
124.33465928908797
 30
0.0
 10
167.15727390064629
 20
121.33465928908797
 30
0.0
 10
162.15727390064629
 20
121.33465928908797
 30
0.0
 10
162.15727390064629
 20
88.334659289087966
 30
0.0
  0
LWPOLYLINE
  5
6C
  8
Corte exterior
 62
256
370
-1
 48
1.0
  6
BYLAYER
100
AcDbEntity
100
AcDbPolyline
 90
10
 70
1
 10
183.67126473277429
 20
154.40464173465591
 30
0.0
 10
183.67126473277429
 20
127.40464173465591
 30
0.0
 10
188.67126473277429
 20
127.40464173465591
 30
0.0
 10
188.67126473277429
 20
130.40464173465591
 30
0.0
 10
193.67126473277429
 20
130.40464173465591
 30
0.0
 10
193.67126473277429
 20
127.40464173465591
 30
0.0
 10
198.67126473277429
 20
127.40464173465591
 30
0.0
 10
198.67126473277429
 20
154.40464173465591
 30
0.0
 10
195.90354349664827
 20
162.51880953912587
 30
0.0
 42
0.7154760664940828
 10
186.43898596890031
 20
162.51880953912587
 30
0.0
  0
LWPOLYLINE
  5
6D
  8
Corte exterior
 62
256
370
-1
 48
1.0
  6
BYLAYER
100
AcDbEntity
100
AcDbPolyline
 90
10
 70
1
 10
162.84362023895034
 20
153.51729328619501
 30
0.0
 10
162.84362023895034
 20
126.517293286195
 30
0.0
 10
167.84362023895034
 20
126.517293286195
 30
0.0
 10
167.84362023895034
 20
129.51729328619501
 30
0.0
 10
172.84362023895034
 20
129.51729328619501
 30
0.0
 10
172.84362023895034
 20
126.517293286195
 30
0.0
 10
177.84362023895034
 20
126.517293286195
 30
0.0
 10
177.84362023895034
 20
153.51729328619501
 30
0.0
 10
175.07589900282431
 20
161.63146109066497
 30
0.0
 42
0.7154760664940828
 10
165.61134147507636
 20
161.63146109066497
 30
0.0
  0
LWPOLYLINE
  5
6E
  8
Corte exterior
 62
256
370
-1
 48
1.0
  6
BYLAYER
100
AcDbEntity
100
AcDbPolyline
 90
17
 70
1
 10
33.79384687568492
 20
108.42496200677778
 30
0.0
 10
51.79384687568492
 20
108.42496200677778
 30
0.0
 10
51.79384687568492
 20
105.42496200677778
 30
0.0
 10
61.79384687568492
 20
105.42496200677778
 30
0.0
 10
61.79384687568492
 20
108.42496200677778
 30
0.0
 10
72.79384687568492
 20
108.42496200677778
 30
0.0
 10
72.79384687568492
 20
175.42496200677778
 30
0.0
 42
-0.3267686149619426
 10
65.499402382488171
 20
181.23380527283462
 30
0.0
 42
0.1960245399639642
 10
52.271069275684901
 20
176.59744200677778
 30
0.0
 42
-0.2232586113281421
 10
40.071069275684934
 20
181.89744200677774
 30
0.0
 42
0.2026161561573986
 10
28.071069275684948
 20
176.59744200677778
 30
0.0
 42
-0.3798415312475094
 10
23.071069275684962
 20
181.98342600677773
 30
0.0
 42
0.2061376657938562
 10
12.79384687568492
 20
175.42496200677778
 30
0.0
 10
12.79384687568492
 20
108.42496200677778
 30
0.0
 10
23.79384687568492
 20
108.42496200677778
 30
0.0
 10
23.79384687568492
 20
105.42496200677778
 30
0.0
 10
33.79384687568492
 20
105.42496200677778
 30
0.0
  0
ELLIPSE
  5
6F
100
AcDbEntity
100
AcDbEllipse
  8
Corte exterior
 62
256
370
-1
 48
1.0
  6
BYLAYER
 10
96.968276205568003
 20
144.60327007027195
 30
0.0
 11
-2.5834239999999791
 21
-5.2354841600000119
 31
0.0
 40
0.8458115499888329
 41
0.0
 42
6.2831853071795862
  0
ELLIPSE
  5
70
100
AcDbEntity
100
AcDbEllipse
  8
Corte exterior
 62
256
370
-1
 48
1.0
  6
BYLAYER
 10
116.06838853631999
 20
65.654938193919975
 30
0.0
 11
0.0
 21
-6.867763199999998
 31
0.0
 40
0.5652173913043475
 41
0.0
 42
6.2831853071795862
  0
CIRCLE
  5
71
100
AcDbEntity
100
AcDbCircle
  8
Corte exterior
 62
256
370
-1
 48
1.0
  6
BYLAYER
 10
8.0
 20
8.0
 30
0.0
 40
4.5
  0
CIRCLE
  5
72
100
AcDbEntity
100
AcDbCircle
  8
Corte exterior
 62
256
370
-1
 48
1.0
  6
BYLAYER
 10
189.58354298757109
 20
27.199769942016022
 30
0.0
 40
1.0
  0
CIRCLE
  5
73
100
AcDbEntity
100
AcDbCircle
  8
Corte exterior
 62
256
370
-1
 48
1.0
  6
BYLAYER
 10
169.99839271280632
 20
19.791159527424028
 30
0.0
 40
3.5
  0
CIRCLE
  5
74
100
AcDbEntity
100
AcDbCircle
  8
Corte exterior
 62
256
370
-1
 48
1.0
  6
BYLAYER
 10
190.20753242480635
 20
75.929365735424
 30
0.0
 40
2.4500000000000002
  0
CIRCLE
  5
75
100
AcDbEntity
100
AcDbCircle
  8
Corte exterior
 62
256
370
-1
 48
1.0
  6
BYLAYER
 10
169.75416310947827
 20
75.186357364735997
 30
0.0
 40
3.5
  0
CIRCLE
  5
76
100
AcDbEntity
100
AcDbCircle
  8
Corte exterior
 62
256
370
-1
 48
1.0
  6
BYLAYER
 10
189.72308638064629
 20
114.34215368908795
 30
0.0
 40
1.0
  0
CIRCLE
  5
77
100
AcDbEntity
100
AcDbCircle
  8
Corte exterior
 62
256
370
-1
 48
1.0
  6
BYLAYER
 10
169.65727390064629
 20
104.83465928908797
 30
0.0
 40
3.5
  0
CIRCLE
  5
78
100
AcDbEntity
100
AcDbCircle
  8
Corte exterior
 62
256
370
-1
 48
1.0
  6
BYLAYER
 10
191.17126473277429
 20
160.90464173465591
 30
0.0
 40
2.4500000000000002
  0
CIRCLE
  5
79
100
AcDbEntity
100
AcDbCircle
  8
Corte exterior
 62
256
370
-1
 48
1.0
  6
BYLAYER
 10
170.34362023895034
 20
160.01729328619501
 30
0.0
 40
3.5
  0
CIRCLE
  5
7A
100
AcDbEntity
100
AcDbCircle
  8
Corte exterior
 62
256
370
-1
 48
1.0
  6
BYLAYER
 10
29.79384687568492
 20
162.92496200677778
 30
0.0
 40
8.0
  0
ELLIPSE
  5
7B
100
AcDbEntity
100
AcDbEllipse
  8
Corte exterior
 62
256
370
-1
 48
1.0
  6
BYLAYER
 10
117.37692900556802
 20
144.74255711027195
 30
0.0
 11
0.0
 21
-6.867763199999998
 31
0.0
 40
0.5652173913043475
 41
0.0
 42
6.2831853071795862
  0
ELLIPSE
  5
7C
100
AcDbEntity
100
AcDbEllipse
  8
Corte exterior
 62
256
370
-1
 48
1.0
  6
BYLAYER
 10
141.65973573631999
 20
65.51565115391999
 30
0.0
 11
3.671295999999999
 21
-6.429877760000017
 31
0.0
 40
0.6453046790700272
 41
0.0
 42
6.2831853071795862
  0
LWPOLYLINE
  5
7D
  8
Corte exterior
 62
256
370
-1
 48
1.0
  6
BYLAYER
100
AcDbEntity
100
AcDbPolyline
 90
4
 70
1
 10
60.0
 20
89.0
 30
0.0
 10
60.0
 20
92.0
 30
0.0
 10
50.0
 20
92.0
 30
0.0
 10
50.0
 20
89.0
 30
0.0
  0
LWPOLYLINE
  5
7E
  8
Grabado Superficie
 62
256
370
-1
 48
1.0
  6
BYLAYER
100
AcDbEntity
100
AcDbPolyline
 90
4
 70
1
 10
168.00942612991054
 20
5.2813693176338186
 30
0.0
 10
166.51770119273868
 20
19.424026660291169
 30
0.0
 42
0.9000703207408205
 10
173.47908423287396
 20
19.424026660291169
 30
0.0
 10
171.98735929570211
 20
5.2813693176338168
 30
0.0
 42
-0.9000703207408186
  0
LWPOLYLINE
  5
7F
  8
Grabado Superficie
 62
256
370
-1
 48
1.0
  6
BYLAYER
100
AcDbEntity
100
AcDbPolyline
 90
4
 70
1
 10
167.76489344025677
 20
60.479460813011855
 30
0.0
 10
166.27294118834061
 20
74.824288399218759
 30
0.0
 42
0.9013878188660003
 10
173.2353850306159
 20
74.824288399218759
 30
0.0
 10
171.74343277869977
 20
60.479460813011855
 30
0.0
 42
-0.9013878188659992
  0
LWPOLYLINE
  5
80
  8
Grabado Superficie
 62
256
370
-1
 48
1.0
  6
BYLAYER
100
AcDbEntity
100
AcDbPolyline
 90
4
 70
1
 10
167.6683073177505
 20
90.324869079297756
 30
0.0
 10
166.17658238057865
 20
104.4675264219551
 30
0.0
 42
0.9000703207408205
 10
173.13796542071393
 20
104.4675264219551
 30
0.0
 10
171.64624048354207
 20
90.324869079297756
 30
0.0
 42
-0.9000703207408186
  0
LWPOLYLINE
  5
81
  8
Grabado Superficie
 62
256
370
-1
 48
1.0
  6
BYLAYER
100
AcDbEntity
100
AcDbPolyline
 90
4
 70
1
 10
168.35435056972884
 20
145.31039673447088
 30
0.0
 10
166.86239831781268
 20
159.65522432067775
 30
0.0
 42
0.9013878188660003
 10
173.82484216008797
 20
159.65522432067775
 30
0.0
 10
172.33288990817184
 20
145.31039673447088
 30
0.0
 42
-0.9013878188659992
  0
CIRCLE
  5
82
100
AcDbEntity
100
AcDbCircle
  8
Corte exterior
 62
256
370
-1
 48
1.0
  6
BYLAYER
 10
55.79384687568492
 20
162.92496200677778
 30
0.0
 40
8.0
  0
ELLIPSE
  5
83
100
AcDbEntity
100
AcDbEllipse
  8
Corte exterior
 62
256
370
-1
 48
1.0
  6
BYLAYER
 10
142.968276205568
 20
144.60327007027195
 30
0.0
 11
3.671295999999999
 21
-6.429877760000017
 31
0.0
 40
0.6453046790700272
 41
0.0
 42
6.2831853071795862
  0
LWPOLYLINE
  5
84
  8
Corte exterior
 62
256
370
-1
 48
1.0
  6
BYLAYER
100
AcDbEntity
100
AcDbPolyline
 90
4
 70
1
 10
128.65973573631999
 20
4.5156511539199897
 30
0.0
 10
128.65973573631999
 20
7.5156511539199897
 30
0.0
 10
123.65973573631997
 20
7.5156511539199897
 30
0.0
 10
123.65973573631997
 20
4.5156511539199897
 30
0.0
  0
LWPOLYLINE
  5
85
  8
Corte exterior
 62
256
370
-1
 48
1.0
  6
BYLAYER
100
AcDbEntity
100
AcDbPolyline
 90
4
 70
1
 10
32.0
 20
89.0
 30
0.0
 10
32.0
 20
92.0
 30
0.0
 10
22.0
 20
92.0
 30
0.0
 10
22.0
 20
89.0
 30
0.0
  0
LWPOLYLINE
  5
86
  8
Grabado Superficie
 62
256
370
-1
 48
1.0
  6
BYLAYER
100
AcDbEntity
100
AcDbPolyline
 90
4
 70
1
 10
171.98735929570211
 20
34.300949737214239
 30
0.0
 10
173.47908423287396
 20
20.158292394556888
 30
0.0
 42
0.9000703207408198
 10
166.51770119273868
 20
20.158292394556888
 30
0.0
 10
168.00942612991054
 20
34.300949737214239
 30
0.0
 42
-0.9000703207408214
  0
LWPOLYLINE
  5
87
  8
Grabado Superficie
 62
256
370
-1
 48
1.0
  6
BYLAYER
100
AcDbEntity
100
AcDbPolyline
 90
4
 70
1
 10
171.64624048354207
 20
119.34444949887818
 30
0.0
 10
173.13796542071393
 20
105.20179215622083
 30
0.0
 42
0.9000703207408198
 10
166.17658238057865
 20
105.20179215622083
 30
0.0
 10
167.6683073177505
 20
119.34444949887818
 30
0.0
 42
-0.9000703207408214
  0
CIRCLE
  5
88
100
AcDbEntity
100
AcDbCircle
  8
Corte exterior
 62
256
370
-1
 48
1.0
  6
BYLAYER
 10
42.79384687568492
 20
142.92496200677778
 30
0.0
 40
6.0
  0
LWPOLYLINE
  5
89
  8
Corte exterior
 62
256
370
-1
 48
1.0
  6
BYLAYER
100
AcDbEntity
100
AcDbPolyline
 90
4
 70
1
 10
129.968276205568
 20
83.603270070271961
 30
0.0
 10
129.968276205568
 20
86.603270070271961
 30
0.0
 10
124.968276205568
 20
86.603270070271961
 30
0.0
 10
124.968276205568
 20
83.603270070271961
 30
0.0
  0
LWPOLYLINE
  5
8A
  8
Corte exterior
 62
256
370
-1
 48
1.0
  6
BYLAYER
100
AcDbEntity
100
AcDbPolyline
 90
4
 70
1
 10
118.65973573631997
 20
4.5156511539199897
 30
0.0
 10
118.65973573631997
 20
7.5156511539199897
 30
0.0
 10
113.65973573631997
 20
7.5156511539199897
 30
0.0
 10
113.65973573631997
 20
4.5156511539199897
 30
0.0
  0
LWPOLYLINE
  5
8B
  8
Corte exterior
 62
256
370
-1
 48
1.0
  6
BYLAYER
100
AcDbEntity
100
AcDbPolyline
 90
16
 70
1
 10
82.0
 20
5.0
 30
0.0
 10
82.0
 20
30.399999999999999
 30
0.0
 10
70.200000000000003
 20
30.399999999999999
 30
0.0
 10
70.200000000000003
 20
53.600000000000001
 30
0.0
 10
82.000000000000014
 20
53.600000000000009
 30
0.0
 10
82.0
 20
92.0
 30
0.0
 42
0.4142135623730951
 10
77.0
 20
97.0
 30
0.0
 10
5.0
 20
97.0
 30
0.0
 42
0.4142135623730951
 10
0.0
 20
92.0
 30
0.0
 10
0.0
 20
53.600000000000001
 30
0.0
 10
11.800000000000001
 20
53.600000000000001
 30
0.0
 10
11.800000000000001
 20
30.399999999999999
 30
0.0
 10
0.0
 20
30.399999999999999
 30
0.0
 10
0.0
 20
5.0
 30
0.0
 42
0.4142135623730951
 10
4.9999999999999991
 20
0.0
 30
0.0
 10
77.0
 20
0.0
 30
0.0
 42
0.4142135623730951
  0
LWPOLYLINE
  5
8C
  8
Corte exterior
 62
256
370
-1
 48
1.0
  6
BYLAYER
100
AcDbEntity
100
AcDbPolyline
 90
4
 70
1
 10
50.208910385146034
 20
129.86822874651438
 30
0.0
 10
45.878783366223821
 20
132.36822874651438
 30
0.0
 10
43.378783366223821
 20
128.03810172759219
 30
0.0
 10
47.708910385146012
 20
125.53810172759219
 30
0.0
  0
LWPOLYLINE
  5
8D
  8
Corte exterior
 62
256
370
-1
 48
1.0
  6
BYLAYER
100
AcDbEntity
100
AcDbPolyline
 90
4
 70
1
 10
119.968276205568
 20
83.603270070271961
 30
0.0
 10
119.968276205568
 20
86.603270070271961
 30
0.0
 10
114.968276205568
 20
86.603270070271961
 30
0.0
 10
114.968276205568
 20
83.603270070271961
 30
0.0
  0
LWPOLYLINE
  5
8E
  8
Corte exterior
 62
256
370
-1
 48
1.0
  6
BYLAYER
100
AcDbEntity
100
AcDbPolyline
 90
4
 70
1
 10
39.708910385146012
 20
132.36822874651438
 30
0.0
 10
35.378783366223828
 20
129.86822874651438
 30
0.0
 10
37.878783366223828
 20
125.53810172759219
 30
0.0
 10
42.208910385146027
 20
128.03810172759219
 30
0.0
  0
LWPOLYLINE
  5
8F
  8
Corte exterior
 62
256
370
-1
 48
1.0
  6
BYLAYER
100
AcDbEntity
100
AcDbPolyline
 90
13
 70
1
 10
112.481543405568
 20
151.81639007027195
 30
0.0
 42
-0.4267308448828892
 10
105.76154340556801
 20
150.85639007027197
 30
0.0
 42
0.2036879538846209
 10
96.968276205568003
 20
154.60327007027195
 30
0.0
 42
0.4142135623730951
 10
86.968276205568003
 20
144.60327007027195
 30
0.0
 10
86.968276205568003
 20
89.603270070271961
 30
0.0
 42
0.4142135623730951
 10
96.968276205568003
 20
79.603270070271961
 30
0.0
 10
142.968276205568
 20
79.603270070271961
 30
0.0
 42
0.4142135623730951
 10
152.968276205568
 20
89.603270070271961
 30
0.0
 10
152.968276205568
 20
144.60327007027195
 30
0.0
 42
0.4142135623730951
 10
142.968276205568
 20
154.60327007027195
 30
0.0
 42
0.2597985560423119
 10
132.52154340556797
 20
149.05639007027196
 30
0.0
 42
-0.5916362338635772
 10
129.28154340556802
 20
148.81639007027195
 30
0.0
 42
0.179946979011532
 10
123.64154340556802
 20
153.97639007027195
 30
0.0
 42
0.2609154386010648
  0
LWPOLYLINE
  5
90
  8
Corte exterior
 62
256
370
-1
 48
1.0
  6
BYLAYER
100
AcDbEntity
100
AcDbPolyline
 90
13
 70
1
 10
111.17300293631997
 20
72.728771153919979
 30
0.0
 42
-0.4267308448828892
 10
104.45300293631999
 20
71.768771153919985
 30
0.0
 42
0.2036879538846209
 10
95.659735736319973
 20
75.51565115391999
 30
0.0
 42
0.4142135623730951
 10
85.659735736319973
 20
65.51565115391999
 30
0.0
 10
85.659735736319973
 20
10.51565115391999
 30
0.0
 42
0.4142135623730951
 10
95.659735736319973
 20
0.5156511539199897
 30
0.0
 10
141.65973573631999
 20
0.5156511539199897
 30
0.0
 42
0.4142135623730951
 10
151.65973573631999
 20
10.51565115391999
 30
0.0
 10
151.65973573631999
 20
65.51565115391999
 30
0.0
 42
0.4142135623730951
 10
141.65973573631999
 20
75.51565115391999
 30
0.0
 42
0.2597985560423119
 10
131.21300293631995
 20
69.968771153919974
 30
0.0
 42
-0.5916362338635772
 10
127.97300293631999
 20
69.728771153919979
 30
0.0
 42
0.179946979011532
 10
122.33300293631999
 20
74.888771153919976
 30
0.0
 42
0.2609154386010648
  0
LWPOLYLINE
  5
91
  8
Corte exterior
 62
256
370
-1
 48
1.0
  6
BYLAYER
100
AcDbEntity
100
AcDbPolyline
 90
4
 70
1
 10
32.29384687568492
 20
124.52496200677778
 30
0.0
 10
32.29384687568492
 20
119.52496200677777
 30
0.0
 10
37.29384687568492
 20
119.52496200677777
 30
0.0
 10
37.29384687568492
 20
124.52496200677777
 30
0.0
  0
LWPOLYLINE
  5
92
  8
Corte exterior
 62
256
370
-1
 48
1.0
  6
BYLAYER
100
AcDbEntity
100
AcDbPolyline
 90
4
 70
1
 10
35.378783366223814
 20
114.18169526704118
 30
0.0
 10
39.708910385146012
 20
111.68169526704118
 30
0.0
 10
42.208910385146012
 20
116.01182228596336
 30
0.0
 10
37.878783366223814
 20
118.51182228596336
 30
0.0
  0
LWPOLYLINE
  5
93
  8
Corte exterior
 62
256
370
-1
 48
1.0
  6
BYLAYER
100
AcDbEntity
100
AcDbPolyline
 90
4
 70
1
 10
45.878783366223821
 20
111.68169526704116
 30
0.0
 10
50.208910385146012
 20
114.18169526704116
 30
0.0
 10
47.708910385146012
 20
118.51182228596336
 30
0.0
 10
43.378783366223821
 20
116.01182228596335
 30
0.0
  0
LWPOLYLINE
  5
94
  8
Corte exterior
 62
256
370
-1
 48
1.0
  6
BYLAYER
100
AcDbEntity
100
AcDbPolyline
 90
4
 70
1
 10
45.29384687568492
 20
119.52496200677777
 30
0.0
 10
45.29384687568492
 20
124.52496200677777
 30
0.0
 10
40.29384687568492
 20
124.52496200677777
 30
0.0
 10
40.29384687568492
 20
119.52496200677777
 30
0.0
  0
LWPOLYLINE
  5
95
  8
Corte exterior
 62
256
370
-1
 48
1.0
  6
BYLAYER
100
AcDbEntity
100
AcDbPolyline
 90
4
 70
1
 10
53.293846875684913
 20
119.52496200677777
 30
0.0
 10
53.293846875684913
 20
124.52496200677777
 30
0.0
 10
48.29384687568492
 20
124.52496200677777
 30
0.0
 10
48.29384687568492
 20
119.52496200677777
 30
0.0
  0
ENDSEC
  0
SECTION
  2
OBJECTS
  0
DICTIONARY
  5
C
100
AcDbDictionary
280
0
281
1
  3
ACAD_GROUP
350
D
  3
ACAD_LAYOUT
350
1A
  3
ACAD_MLINESTYLE
350
17
  3
ACAD_PLOTSETTINGS
350
19
  3
ACAD_PLOTSTYLENAME
350
E
  3
AcDbVariableDictionary
350
96
  3
QCAD_OBJECTS
350
97
  0
DICTIONARY
  5
D
100
AcDbDictionary
280
0
281
1
  0
ACDBDICTIONARYWDFLT
  5
E
100
AcDbDictionary
281
1
  3
Normal
350
F
100
AcDbDictionaryWithDefault
340
F
  0
ACDBPLACEHOLDER
  5
F
  0
DICTIONARY
  5
17
100
AcDbDictionary
280
0
281
1
  3
Standard
350
18
  0
MLINESTYLE
  5
18
100
AcDbMlineStyle
  2
STANDARD
 70
0
  3

 62
256
 51
90.0
 52
90.0
 71
2
 49
0.5
 62
256
  6
BYLAYER
 49
-0.5
 62
256
  6
BYLAYER
  0
DICTIONARY
  5
19
100
AcDbDictionary
280
0
281
1
  0
DICTIONARY
  5
1A
100
AcDbDictionary
281
1
  3
Layout1
350
1E
  3
Layout2
350
26
  3
Model
350
22
  0
LAYOUT
  5
1E
100
AcDbPlotSettings
  1

  2
none_device
  4

  6

 40
0.0
 41
0.0
 42
0.0
 43
0.0
 44
0.0
 45
0.0
 46
0.0
 47
0.0
 48
0.0
 49
0.0
140
0.0
141
0.0
142
1.0
143
1.0
 70
688
 72
0
 73
0
 74
5
  7

 75
16
147
1.0
148
0.0
149
0.0
100
AcDbLayout
  1
Layout1
 70
1
 71
1
 10
0.0
 20
0.0
 11
420.0
 21
297.0
 12
0.0
 22
0.0
 32
0.0
 14
100000000000000000000.0
 24
100000000000000000000.0
 34
100000000000000000000.0
 15
-100000000000000000000.0
 25
-100000000000000000000.0
 35
-100000000000000000000.0
146
0.0
 13
0.0
 23
0.0
 33
0.0
 16
1.0
 26
0.0
 36
0.0
 17
0.0
 27
1.0
 37
0.0
 76
0
330
1B
  0
LAYOUT
  5
22
100
AcDbPlotSettings
  1

  2
none_device
  4

  6

 40
0.0
 41
0.0
 42
0.0
 43
0.0
 44
0.0
 45
0.0
 46
0.0
 47
0.0
 48
0.0
 49
0.0
140
0.0
141
0.0
142
1.0
143
1.0
 70
1712
 72
0
 73
0
 74
0
  7

 75
0
147
1.0
148
0.0
149
0.0
100
AcDbLayout
  1
Model
 70
1
 71
0
 10
0.0
 20
0.0
 11
12.0
 21
9.0
 12
0.0
 22
0.0
 32
0.0
 14
0.0
 24
0.0
 34
0.0
 15
0.0
 25
0.0
 35
0.0
146
0.0
 13
0.0
 23
0.0
 33
0.0
 16
1.0
 26
0.0
 36
0.0
 17
0.0
 27
1.0
 37
0.0
 76
0
330
1F
  0
LAYOUT
  5
26
100
AcDbPlotSettings
  1

  2
none_device
  4

  6

 40
0.0
 41
0.0
 42
0.0
 43
0.0
 44
0.0
 45
0.0
 46
0.0
 47
0.0
 48
0.0
 49
0.0
140
0.0
141
0.0
142
1.0
143
1.0
 70
688
 72
0
 73
0
 74
5
  7

 75
16
147
1.0
148
0.0
149
0.0
100
AcDbLayout
  1
Layout2
 70
1
 71
2
 10
0.0
 20
0.0
 11
12.0
 21
9.0
 12
0.0
 22
0.0
 32
0.0
 14
0.0
 24
0.0
 34
0.0
 15
0.0
 25
0.0
 35
0.0
146
0.0
 13
0.0
 23
0.0
 33
0.0
 16
1.0
 26
0.0
 36
0.0
 17
0.0
 27
1.0
 37
0.0
 76
0
330
23
  0
DICTIONARY
  5
96
100
AcDbDictionary
281
1
  3
DIMASSOC
350
99
  3
HIDETEXT
350
98
  0
DICTIONARYVAR
  5
98
100
DictionaryVariables
280
0
  1
2
  0
DICTIONARYVAR
  5
99
100
DictionaryVariables
280
0
  1
1
  0
DICTIONARY
  5
97
100
AcDbDictionary
281
1
  3
ColorSettings/BackgroundColor
350
9A
  3
ColorSettings/ColorMode
350
9B
  3
Grid/DisplayGrid00
350
9C
  3
Grid/DisplayGrid01
350
9D
  3
Grid/DisplayGrid02
350
9E
  3
Grid/DisplayGrid03
350
9F
  3
Grid/GridSpacingX00
350
A0
  3
Grid/GridSpacingX01
350
A1
  3
Grid/GridSpacingX02
350
A2
  3
Grid/GridSpacingX03
350
A3
  3
Grid/GridSpacingY00
350
A4
  3
Grid/GridSpacingY01
350
A5
  3
Grid/GridSpacingY02
350
A6
  3
Grid/GridSpacingY03
350
A7
  3
Grid/IsometricGrid00
350
A8
  3
Grid/IsometricGrid01
350
A9
  3
Grid/IsometricGrid02
350
AA
  3
Grid/IsometricGrid03
350
AB
  3
Grid/IsometricProjection00
350
AC
  3
Grid/IsometricProjection01
350
AD
  3
Grid/IsometricProjection02
350
AE
  3
Grid/IsometricProjection03
350
AF
  3
Grid/MetaGridSpacingX00
350
B0
  3
Grid/MetaGridSpacingX01
350
B1
  3
Grid/MetaGridSpacingX02
350
B2
  3
Grid/MetaGridSpacingX03
350
B3
  3
Grid/MetaGridSpacingY00
350
B4
  3
Grid/MetaGridSpacingY01
350
B5
  3
Grid/MetaGridSpacingY02
350
B6
  3
Grid/MetaGridSpacingY03
350
B7
  3
MultiPageSettings/Columns
350
B8
  3
MultiPageSettings/GlueMarginsBottom
350
B9
  3
MultiPageSettings/GlueMarginsLeft
350
BA
  3
MultiPageSettings/GlueMarginsRight
350
BB
  3
MultiPageSettings/GlueMarginsTop
350
BC
  3
MultiPageSettings/PrintCropMarks
350
BD
  3
MultiPageSettings/Rows
350
BE
  3
PageSettings/OffsetX
350
BF
  3
PageSettings/OffsetY
350
C0
  3
PageSettings/PageOrientation
350
C1
  3
PageSettings/PaperHeight
350
C2
  3
PageSettings/PaperWidth
350
C3
  3
PageSettings/Scale
350
C4
  3
PageSettings/ShowPaperBorders
350
C5
  3
QCADVersion
350
C6
  3
UnitSettings/PaperUnit
350
C7
  3
ViewportCenter
350
C8
  3
ViewportHeight
350
C9
  3
ViewportWidth
350
CA
  0
XRECORD
  5
9A
330
97
100
AcDbXrecord
280
1
1000
Blanca
  0
XRECORD
  5
9B
330
97
100
AcDbXrecord
280
1
1000
FullColor
  0
XRECORD
  5
9C
330
97
100
AcDbXrecord
280
1
290
1
  0
XRECORD
  5
9D
330
97
100
AcDbXrecord
280
1
290
1
  0
XRECORD
  5
9E
330
97
100
AcDbXrecord
280
1
290
1
  0
XRECORD
  5
9F
330
97
100
AcDbXrecord
280
1
290
1
  0
XRECORD
  5
A0
330
97
100
AcDbXrecord
280
1
1000
auto
  0
XRECORD
  5
A1
330
97
100
AcDbXrecord
280
1
1000
auto
  0
XRECORD
  5
A2
330
97
100
AcDbXrecord
280
1
1000
auto
  0
XRECORD
  5
A3
330
97
100
AcDbXrecord
280
1
1000
auto
  0
XRECORD
  5
A4
330
97
100
AcDbXrecord
280
1
1000
auto
  0
XRECORD
  5
A5
330
97
100
AcDbXrecord
280
1
1000
auto
  0
XRECORD
  5
A6
330
97
100
AcDbXrecord
280
1
1000
auto
  0
XRECORD
  5
A7
330
97
100
AcDbXrecord
280
1
1000
auto
  0
XRECORD
  5
A8
330
97
100
AcDbXrecord
280
1
290
0
  0
XRECORD
  5
A9
330
97
100
AcDbXrecord
280
1
290
0
  0
XRECORD
  5
AA
330
97
100
AcDbXrecord
280
1
290
0
  0
XRECORD
  5
AB
330
97
100
AcDbXrecord
280
1
290
0
  0
XRECORD
  5
AC
330
97
100
AcDbXrecord
280
1
 90
0
  0
XRECORD
  5
AD
330
97
100
AcDbXrecord
280
1
 90
0
  0
XRECORD
  5
AE
330
97
100
AcDbXrecord
280
1
 90
0
  0
XRECORD
  5
AF
330
97
100
AcDbXrecord
280
1
 90
0
  0
XRECORD
  5
B0
330
97
100
AcDbXrecord
280
1
1000
auto
  0
XRECORD
  5
B1
330
97
100
AcDbXrecord
280
1
1000
auto
  0
XRECORD
  5
B2
330
97
100
AcDbXrecord
280
1
1000
auto
  0
XRECORD
  5
B3
330
97
100
AcDbXrecord
280
1
1000
auto
  0
XRECORD
  5
B4
330
97
100
AcDbXrecord
280
1
1000
auto
  0
XRECORD
  5
B5
330
97
100
AcDbXrecord
280
1
1000
auto
  0
XRECORD
  5
B6
330
97
100
AcDbXrecord
280
1
1000
auto
  0
XRECORD
  5
B7
330
97
100
AcDbXrecord
280
1
1000
auto
  0
XRECORD
  5
B8
330
97
100
AcDbXrecord
280
1
 90
1
  0
XRECORD
  5
B9
330
97
100
AcDbXrecord
280
1
 40
10.0
  0
XRECORD
  5
BA
330
97
100
AcDbXrecord
280
1
 40
10.0
  0
XRECORD
  5
BB
330
97
100
AcDbXrecord
280
1
 40
10.0
  0
XRECORD
  5
BC
330
97
100
AcDbXrecord
280
1
 40
10.0
  0
XRECORD
  5
BD
330
97
100
AcDbXrecord
280
1
290
0
  0
XRECORD
  5
BE
330
97
100
AcDbXrecord
280
1
 90
1
  0
XRECORD
  5
BF
330
97
100
AcDbXrecord
280
1
 40
0.0
  0
XRECORD
  5
C0
330
97
100
AcDbXrecord
280
1
 40
0.0
  0
XRECORD
  5
C1
330
97
100
AcDbXrecord
280
1
1000
Portrait
  0
XRECORD
  5
C2
330
97
100
AcDbXrecord
280
1
 40
279.39999999999998
  0
XRECORD
  5
C3
330
97
100
AcDbXrecord
280
1
 40
215.90000000000001
  0
XRECORD
  5
C4
330
97
100
AcDbXrecord
280
1
1000
1:1
  0
XRECORD
  5
C5
330
97
100
AcDbXrecord
280
1
290
1
  0
XRECORD
  5
C6
330
97
100
AcDbXrecord
280
1
1000
3.15.2
  0
XRECORD
  5
C7
330
97
100
AcDbXrecord
280
1
 90
4
  0
XRECORD
  5
C9
330
97
100
AcDbXrecord
280
1
 40
198.13556551679989
  0
XRECORD
  5
CA
330
97
100
AcDbXrecord
280
1
 40
444.25708830719975
  0
ENDSEC
  0
EOF
